GUITAR LESSON TAB 

Guitar Lesson - Speed up your playing with Legato 
 
Speed up your Guitar playing with the use of hammer ons and pull offs.
 

(/) Slide Up  (\) Slide Down  (h) Hammer On  (p) Pull Off  (b) Bend (r) Release (v) Vibrato

 

Example 1:

 

E|----------------------------------------------------------------------------

B|--12h15p12--------12h15p12--------12h15p12-----------------------

G|----------------14-----------------14-------------------14---------------

D|----------------------------------------------------------------------------

A|----------------------------------------------------------------------------

E|----------------------------------------------------------------------------

 

Example 2:

 

E|--------------------------------------------------------------------------------

B|--12h15p12-------------12h15p12---------------12h15p12--------------

G|----------------14b16------------------14b16-------------------14b16---

D|-------------------------------------------------------------------------------

A|-------------------------------------------------------------------------------

E|-------------------------------------------------------------------------------